ISO-10303-21;
HEADER;
FILE_DESCRIPTION (( 'STEP AP203' ),
    '1' );
FILE_NAME ('2.12.10.M5.STEP',
    '2014-06-24T02:23:10',
    ( 'USER' ),
    ( 'Microsoft' ),
    'SwSTEP 2.0',
    'SolidWorks 2012',
    '' );
FILE_SCHEMA (( 'CONFIG_CONTROL_DESIGN' ));
ENDSEC;

DATA;
#1 = PRODUCT ( '2.12.10.M5', '2.12.10.M5', '', ( #240 ) ) ;
#2 = PERSON ( 'Î´Ö¸¶¨', 'Î´Ö¸¶¨', 'Î´Ö¸¶¨', ('Î´Ö¸¶¨'), ('Î´Ö¸¶¨'), ('Î´Ö¸¶¨') ) ;
#3 = DESIGN_CONTEXT ( 'detailed design', #238, 'design' ) ;
#4 = PRODUCT_DEFINITION_SHAPE ( 'NONE', 'NONE',  #287 ) ;
#5 = EDGE_CURVE ( 'NONE', #175, #123, #173, .T. ) ;
#6 = EDGE_CURVE ( 'NONE', #179, #175, #128, .T. ) ;
#7 = EDGE_CURVE ( 'NONE', #123, #184, #174, .T. ) ;
#8 = EDGE_CURVE ( 'NONE', #184, #176, #169, .T. ) ;
#9 = EDGE_CURVE ( 'NONE', #224, #195, #171, .T. ) ;
#10 = AXIS2_PLACEMENT_3D ( 'NONE', #243, #242, #241 ) ;
#11 = ADVANCED_BREP_SHAPE_REPRESENTATION ( '2.12.10.M5', ( #12, #10 ), #283 ) ;
#12 = MANIFOLD_SOLID_BREP ( 'M5 ÂÝÎÆ¿×1', #127 ) ;
#13 = UNCERTAINTY_MEASURE_WITH_UNIT (LENGTH_MEASURE( 1.000000000000000100E-005 ), #251, 'distance_accuracy_value', 'NONE');
#14 = DIRECTION ( 'NONE',  ( 0.0000000000000000000, 0.0000000000000000000, 1.000000000000000000 ) ) ;
#15 = DIRECTION ( 'NONE',  ( -0.0000000000000000000, 1.000000000000000000, -0.0000000000000000000 ) ) ;
#16 = DIRECTION ( 'NONE',  ( 0.0000000000000000000, 0.0000000000000000000, 1.000000000000000000 ) ) ;
#17 = CARTESIAN_POINT ( 'NONE',  ( -9.000000000000000000, -854.0475410754714900, -2389.311899632991300 ) ) ;
#18 = CARTESIAN_POINT ( 'NONE',  ( -9.000000000000000000, -854.0475410754714900, -2387.211899632991400 ) ) ;
#19 = PLANE ( 'NONE',  #305 ) ;
#20 = DIRECTION ( 'NONE',  ( -0.0000000000000000000, 1.000000000000000000, -0.0000000000000000000 ) ) ;
#21 = DIRECTION ( 'NONE',  ( 1.000000000000000000, -0.0000000000000000000, -0.0000000000000000000 ) ) ;
#22 = DIRECTION ( 'NONE',  ( -0.0000000000000000000, -0.0000000000000000000, -1.000000000000000000 ) ) ;
#23 = CARTESIAN_POINT ( 'NONE',  ( -18.00000000000000000, -858.0475410754716000, -2398.311899632991300 ) ) ;
#24 = CARTESIAN_POINT ( 'NONE',  ( 0.0000000000000000000, -854.0475410754714900, -2398.311899632991300 ) ) ;
#25 = DIRECTION ( 'NONE',  ( 0.0000000000000000000, 0.0000000000000000000, 1.000000000000000000 ) ) ;
#26 = DIRECTION ( 'NONE',  ( 0.0000000000000000000, 0.0000000000000000000, 1.000000000000000000 ) ) ;
#27 = DIRECTION ( 'NONE',  ( -0.0000000000000000000, 1.000000000000000000, -0.0000000000000000000 ) ) ;
#28 = DIRECTION ( 'NONE',  ( -0.0000000000000000000, 1.000000000000000000, -0.0000000000000000000 ) ) ;
#29 = CARTESIAN_POINT ( 'NONE',  ( -9.000000000000000000, -854.0475410754714900, -2389.311899632991300 ) ) ;
#30 = DIRECTION ( 'NONE',  ( -0.0000000000000000000, -0.0000000000000000000, 1.000000000000000000 ) ) ;
#31 = CARTESIAN_POINT ( 'NONE',  ( -18.00000000000000000, -854.0475410754714900, -2380.311899632991300 ) ) ;
#32 = DIRECTION ( 'NONE',  ( -0.0000000000000000000, -0.0000000000000000000, 1.000000000000000000 ) ) ;
#33 = DIRECTION ( 'NONE',  ( -0.0000000000000000000, 1.000000000000000000, -0.0000000000000000000 ) ) ;
#34 = CARTESIAN_POINT ( 'NONE',  ( 0.0000000000000000000, -858.0475410754716000, -2380.311899632991300 ) ) ;
#35 = CARTESIAN_POINT ( 'NONE',  ( -18.00000000000000000, -858.0475410754716000, -2380.311899632991300 ) ) ;
#36 = CARTESIAN_POINT ( 'NONE',  ( 0.0000000000000000000, -854.0475410754714900, -2380.311899632991300 ) ) ;
#37 = CARTESIAN_POINT ( 'NONE',  ( 0.0000000000000000000, -858.0475410754716000, -2398.311899632991300 ) ) ;
#38 = CARTESIAN_POINT ( 'NONE',  ( -18.00000000000000000, -858.0475410754716000, -2398.311899632991300 ) ) ;
#39 = CARTESIAN_POINT ( 'NONE',  ( -18.00000000000000000, -858.0475410754716000, -2380.311899632991300 ) ) ;
#40 = DIRECTION ( 'NONE',  ( -0.0000000000000000000, -1.000000000000000000, -0.0000000000000000000 ) ) ;
#41 = CARTESIAN_POINT ( 'NONE',  ( -18.00000000000000000, -854.0475410754714900, -2380.311899632991300 ) ) ;
#42 = CARTESIAN_POINT ( 'NONE',  ( -9.000000000000000000, -858.0475410754716000, -2387.211899632991400 ) ) ;
#43 = CARTESIAN_POINT ( 'NONE',  ( -9.000000000000000000, -854.0475410754714900, -2391.411899632991200 ) ) ;
#44 = CARTESIAN_POINT ( 'NONE',  ( -18.00000000000000000, -858.0475410754716000, -2380.311899632991300 ) ) ;
#45 = CARTESIAN_POINT ( 'NONE',  ( -9.000000000000000000, -858.0475410754716000, -2391.411899632991200 ) ) ;
#46 = CARTESIAN_POINT ( 'NONE',  ( 0.0000000000000000000, -858.0475410754716000, -2380.311899632991300 ) ) ;
#47 = CARTESIAN_POINT ( 'NONE',  ( -9.000000000000000000, -854.0475410754714900, -2387.211899632991400 ) ) ;
#48 = DIRECTION ( 'NONE',  ( 0.0000000000000000000, 0.0000000000000000000, -1.000000000000000000 ) ) ;
#49 = DIRECTION ( 'NONE',  ( 1.000000000000000000, 0.0000000000000000000, 0.0000000000000000000 ) ) ;
#50 = CARTESIAN_POINT ( 'NONE',  ( 0.0000000000000000000, -854.0475410754714900, -2398.311899632991300 ) ) ;
#51 = PLANE ( 'NONE',  #279 ) ;
#52 = DIRECTION ( 'NONE',  ( 0.0000000000000000000, -0.0000000000000000000, 1.000000000000000000 ) ) ;
#53 = DIRECTION ( 'NONE',  ( 0.0000000000000000000, 1.000000000000000000, 0.0000000000000000000 ) ) ;
#54 = CARTESIAN_POINT ( 'NONE',  ( -18.00000000000000000, -858.0475410754716000, -2380.311899632991300 ) ) ;
#55 = CARTESIAN_POINT ( 'NONE',  ( -18.00000000000000000, -854.0475410754714900, -2398.311899632991300 ) ) ;
#56 = DIRECTION ( 'NONE',  ( 0.0000000000000000000, -0.0000000000000000000, -1.000000000000000000 ) ) ;
#57 = CARTESIAN_POINT ( 'NONE',  ( 0.0000000000000000000, -858.0475410754716000, -2398.311899632991300 ) ) ;
#58 = DIRECTION ( 'NONE',  ( 0.0000000000000000000, -1.000000000000000000, 0.0000000000000000000 ) ) ;
#59 = CARTESIAN_POINT ( 'NONE',  ( -18.00000000000000000, -858.0475410754716000, -2380.311899632991300 ) ) ;
#60 = CARTESIAN_POINT ( 'NONE',  ( -18.00000000000000000, -854.0475410754714900, -2398.311899632991300 ) ) ;
#61 = PLANE ( 'NONE',  #280 ) ;
#62 = DIRECTION ( 'NONE',  ( -1.000000000000000000, 0.0000000000000000000, 0.0000000000000000000 ) ) ;
#63 = DIRECTION ( 'NONE',  ( -0.0000000000000000000, 0.0000000000000000000, -1.000000000000000000 ) ) ;
#64 = PLANE ( 'NONE',  #273 ) ;
#65 = PLANE ( 'NONE',  #275 ) ;
#66 = DIRECTION ( 'NONE',  ( 1.000000000000000000, -0.0000000000000000000, -0.0000000000000000000 ) ) ;
#67 = CARTESIAN_POINT ( 'NONE',  ( -18.00000000000000000, -854.0475410754714900, -2398.311899632991300 ) ) ;
#68 = DIRECTION ( 'NONE',  ( 0.0000000000000000000, 0.0000000000000000000, -1.000000000000000000 ) ) ;
#69 = DIRECTION ( 'NONE',  ( 1.000000000000000000, 0.0000000000000000000, 0.0000000000000000000 ) ) ;
#70 = CARTESIAN_POINT ( 'NONE',  ( -18.00000000000000000, -854.0475410754714900, -2398.311899632991300 ) ) ;
#71 = CARTESIAN_POINT ( 'NONE',  ( -18.00000000000000000, -854.0475410754714900, -2380.311899632991300 ) ) ;
#72 = CARTESIAN_POINT ( 'NONE',  ( -9.000000000000000000, -854.0475410754714900, -2389.311899632991300 ) ) ;
#73 = PLANE ( 'NONE',  #298 ) ;
#74 = DIRECTION ( 'NONE',  ( -0.0000000000000000000, -0.0000000000000000000, -1.000000000000000000 ) ) ;
#75 = CARTESIAN_POINT ( 'NONE',  ( -9.000000000000000000, -854.0475410754714900, -2389.311899632991300 ) ) ;
#76 = DIRECTION ( 'NONE',  ( -0.0000000000000000000, 1.000000000000000000, -0.0000000000000000000 ) ) ;
#77 = DIRECTION ( 'NONE',  ( 1.000000000000000000, 0.0000000000000000000, -0.0000000000000000000 ) ) ;
#78 = DIRECTION ( 'NONE',  ( 0.0000000000000000000, -0.0000000000000000000, 1.000000000000000000 ) ) ;
#79 = CARTESIAN_POINT ( 'NONE',  ( 0.0000000000000000000, -858.0475410754716000, -2380.311899632991300 ) ) ;
#80 = ADVANCED_FACE ( 'NONE', ( #167 ), #160, .F. ) ;
#81 = ADVANCED_FACE ( 'NONE', ( #165 ), #19, .F. ) ;
#82 = ADVANCED_FACE ( 'NONE', ( #162 ), #157, .F. ) ;
#83 = ADVANCED_FACE ( 'NONE', ( #159 ), #73, .T. ) ;
#84 = ADVANCED_FACE ( 'NONE', ( #161 ), #65, .F. ) ;
#85 = ADVANCED_FACE ( 'NONE', ( #163, #154 ), #64, .F. ) ;
#86 = ADVANCED_FACE ( 'NONE', ( #155, #152 ), #61, .F. ) ;
#87 = ADVANCED_FACE ( 'NONE', ( #153 ), #51, .F. ) ;
#88 = APPROVAL_DATE_TIME ( #89, #289 ) ;
#89 = DATE_AND_TIME ( #90, #91 ) ;
#90 = CALENDAR_DATE ( 2014, 24, 6 ) ;
#91 = LOCAL_TIME ( 10, 23, 10.00000000000000000, #92 ) ;
#92 = COORDINATED_UNIVERSAL_TIME_OFFSET ( 8, 0, .AHEAD. ) ;
#93 = APPROVAL_PERSON_ORGANIZATION ( #94, #289, #246 ) ;
#94 = PERSON_AND_ORGANIZATION ( #2, #122 ) ;
#95 = DATE_AND_TIME ( #96, #97 ) ;
#96 = CALENDAR_DATE ( 2014, 24, 6 ) ;
#97 = LOCAL_TIME ( 10, 23, 10.00000000000000000, #98 ) ;
#98 = COORDINATED_UNIVERSAL_TIME_OFFSET ( 8, 0, .AHEAD. ) ;
#99 = PERSON_AND_ORGANIZATION ( #2, #122 ) ;
#100 = PERSON_AND_ORGANIZATION ( #2, #122 ) ;
#101 = PERSON_AND_ORGANIZATION ( #2, #122 ) ;
#102 = APPROVAL_DATE_TIME ( #103, #300 ) ;
#103 = DATE_AND_TIME ( #104, #105 ) ;
#104 = CALENDAR_DATE ( 2014, 24, 6 ) ;
#105 = LOCAL_TIME ( 10, 23, 10.00000000000000000, #106 ) ;
#106 = COORDINATED_UNIVERSAL_TIME_OFFSET ( 8, 0, .AHEAD. ) ;
#107 = APPROVAL_PERSON_ORGANIZATION ( #108, #300, #231 ) ;
#108 = PERSON_AND_ORGANIZATION ( #2, #122 ) ;
#109 = DATE_AND_TIME ( #110, #111 ) ;
#110 = CALENDAR_DATE ( 2014, 24, 6 ) ;
#111 = LOCAL_TIME ( 10, 23, 10.00000000000000000, #112 ) ;
#112 = COORDINATED_UNIVERSAL_TIME_OFFSET ( 8, 0, .AHEAD. ) ;
#113 = PERSON_AND_ORGANIZATION ( #2, #122 ) ;
#114 = APPROVAL_DATE_TIME ( #115, #286 ) ;
#115 = DATE_AND_TIME ( #116, #117 ) ;
#116 = CALENDAR_DATE ( 2014, 24, 6 ) ;
#117 = LOCAL_TIME ( 10, 23, 10.00000000000000000, #118 ) ;
#118 = COORDINATED_UNIVERSAL_TIME_OFFSET ( 8, 0, .AHEAD. ) ;
#119 = APPROVAL_PERSON_ORGANIZATION ( #120, #286, #235 ) ;
#120 = PERSON_AND_ORGANIZATION ( #2, #122 ) ;
#121 = PERSON_AND_ORGANIZATION ( #2, #122 ) ;
#122 = ORGANIZATION ( 'Î´Ö¸¶¨', 'Î´Ö¸¶¨', '' ) ;
#123 = VERTEX_POINT ( 'NONE', #50 ) ;
#124 = ORIENTED_EDGE ( 'NONE', *, *, #295, .F. ) ;
#125 = ORIENTED_EDGE ( 'NONE', *, *, #276, .T. ) ;
#126 = VERTEX_POINT ( 'NONE', #43 ) ;
#127 = CLOSED_SHELL ( 'NONE', ( #82, #84, #85, #81, #86, #87, #83, #80 ) ) ;
#128 = LINE ( 'NONE', #60, #170 ) ;
#129 = ORIENTED_EDGE ( 'NONE', *, *, #271, .F. ) ;
#130 = VERTEX_POINT ( 'NONE', #47 ) ;
#131 = VECTOR ( 'NONE', #253, 1000.000000000000000 ) ;
#132 = SHAPE_DEFINITION_REPRESENTATION ( #4, #11 ) ;
#133 = VECTOR ( 'NONE', #255, 1000.000000000000000 ) ;
#134 = LINE ( 'NONE', #254, #131 ) ;
#135 = VECTOR ( 'NONE', #263, 1000.000000000000000 ) ;
#136 = LINE ( 'NONE', #261, #133 ) ;
#137 = LINE ( 'NONE', #267, #135 ) ;
#138 = VECTOR ( 'NONE', #260, 1000.000000000000000 ) ;
#139 = CIRCLE ( 'NONE', #268, 2.099999999999990800 ) ;
#140 = VECTOR ( 'NONE', #247, 1000.000000000000000 ) ;
#141 = LINE ( 'NONE', #256, #138 ) ;
#142 = VECTOR ( 'NONE', #20, 1000.000000000000000 ) ;
#143 = CIRCLE ( 'NONE', #269, 2.099999999999990800 ) ;
#144 = LINE ( 'NONE', #262, #140 ) ;
#145 = VECTOR ( 'NONE', #21, 1000.000000000000000 ) ;
#146 = LINE ( 'NONE', #18, #142 ) ;
#147 = LINE ( 'NONE', #35, #145 ) ;
#148 = LINE ( 'NONE', #31, #151 ) ;
#149 = CIRCLE ( 'NONE', #282, 2.099999999999990800 ) ;
#150 = CIRCLE ( 'NONE', #274, 2.099999999999990800 ) ;
#151 = VECTOR ( 'NONE', #33, 1000.000000000000000 ) ;
#152 = FACE_OUTER_BOUND ( 'NONE', #198, .T. ) ;
#153 = FACE_OUTER_BOUND ( 'NONE', #200, .T. ) ;
#154 = FACE_OUTER_BOUND ( 'NONE', #191, .T. ) ;
#155 = FACE_BOUND ( 'NONE', #193, .T. ) ;
#156 = LINE ( 'NONE', #24, #158 ) ;
#157 = CYLINDRICAL_SURFACE ( 'NONE', #303, 2.099999999999990800 ) ;
#158 = VECTOR ( 'NONE', #22, 1000.000000000000000 ) ;
#159 = FACE_OUTER_BOUND ( 'NONE', #196, .T. ) ;
#160 = CYLINDRICAL_SURFACE ( 'NONE', #306, 2.099999999999990800 ) ;
#161 = FACE_OUTER_BOUND ( 'NONE', #199, .T. ) ;
#162 = FACE_OUTER_BOUND ( 'NONE', #201, .T. ) ;
#163 = FACE_BOUND ( 'NONE', #197, .T. ) ;
#164 = VECTOR ( 'NONE', #30, 1000.000000000000000 ) ;
#165 = FACE_OUTER_BOUND ( 'NONE', #194, .T. ) ;
#166 = VECTOR ( 'NONE', #32, 1000.000000000000000 ) ;
#167 = FACE_OUTER_BOUND ( 'NONE', #190, .T. ) ;
#168 = VECTOR ( 'NONE', #40, 1000.000000000000000 ) ;
#169 = LINE ( 'NONE', #34, #166 ) ;
#170 = VECTOR ( 'NONE', #74, 1000.000000000000000 ) ;
#171 = LINE ( 'NONE', #44, #164 ) ;
#172 = VECTOR ( 'NONE', #66, 1000.000000000000000 ) ;
#173 = LINE ( 'NONE', #67, #172 ) ;
#174 = LINE ( 'NONE', #57, #168 ) ;
#175 = VERTEX_POINT ( 'NONE', #55 ) ;
#176 = VERTEX_POINT ( 'NONE', #46 ) ;
#177 = VERTEX_POINT ( 'NONE', #42 ) ;
#178 = VERTEX_POINT ( 'NONE', #45 ) ;
#179 = VERTEX_POINT ( 'NONE', #41 ) ;
#180 = ORIENTED_EDGE ( 'NONE', *, *, #277, .T. ) ;
#181 = ORIENTED_EDGE ( 'NONE', *, *, #281, .T. ) ;
#182 = ORIENTED_EDGE ( 'NONE', *, *, #307, .F. ) ;
#183 = ORIENTED_EDGE ( 'NONE', *, *, #311, .F. ) ;
#184 = VERTEX_POINT ( 'NONE', #37 ) ;
#185 = ORIENTED_EDGE ( 'NONE', *, *, #272, .F. ) ;
#186 = ORIENTED_EDGE ( 'NONE', *, *, #7, .F. ) ;
#187 = ORIENTED_EDGE ( 'NONE', *, *, #8, .F. ) ;
#188 = ORIENTED_EDGE ( 'NONE', *, *, #296, .F. ) ;
#189 = ORIENTED_EDGE ( 'NONE', *, *, #284, .F. ) ;
#190 = EDGE_LOOP ( 'NONE', ( #183, #182, #181, #180 ) ) ;
#191 = EDGE_LOOP ( 'NONE', ( #221, #220, #219, #217 ) ) ;
#192 = VERTEX_POINT ( 'NONE', #36 ) ;
#193 = EDGE_LOOP ( 'NONE', ( #211, #210 ) ) ;
#194 = EDGE_LOOP ( 'NONE', ( #215, #214, #213, #212 ) ) ;
#195 = VERTEX_POINT ( 'NONE', #39 ) ;
#196 = EDGE_LOOP ( 'NONE', ( #188, #187, #186, #185 ) ) ;
#197 = EDGE_LOOP ( 'NONE', ( #226, #222 ) ) ;
#198 = EDGE_LOOP ( 'NONE', ( #209, #208, #207, #206 ) ) ;
#199 = EDGE_LOOP ( 'NONE', ( #218, #124, #129, #125 ) ) ;
#200 = EDGE_LOOP ( 'NONE', ( #205, #204, #203, #202 ) ) ;
#201 = EDGE_LOOP ( 'NONE', ( #189, #225, #223, #216 ) ) ;
#202 = ORIENTED_EDGE ( 'NONE', *, *, #9, .T. ) ;
#203 = ORIENTED_EDGE ( 'NONE', *, *, #310, .T. ) ;
#204 = ORIENTED_EDGE ( 'NONE', *, *, #6, .T. ) ;
#205 = ORIENTED_EDGE ( 'NONE', *, *, #271, .T. ) ;
#206 = ORIENTED_EDGE ( 'NONE', *, *, #308, .T. ) ;
#207 = ORIENTED_EDGE ( 'NONE', *, *, #9, .F. ) ;
#208 = ORIENTED_EDGE ( 'NONE', *, *, #276, .F. ) ;
#209 = ORIENTED_EDGE ( 'NONE', *, *, #8, .T. ) ;
#210 = ORIENTED_EDGE ( 'NONE', *, *, #284, .T. ) ;
#211 = ORIENTED_EDGE ( 'NONE', *, *, #307, .T. ) ;
#212 = ORIENTED_EDGE ( 'NONE', *, *, #5, .T. ) ;
#213 = ORIENTED_EDGE ( 'NONE', *, *, #310, .F. ) ;
#214 = ORIENTED_EDGE ( 'NONE', *, *, #308, .F. ) ;
#215 = ORIENTED_EDGE ( 'NONE', *, *, #7, .T. ) ;
#216 = ORIENTED_EDGE ( 'NONE', *, *, #281, .F. ) ;
#217 = ORIENTED_EDGE ( 'NONE', *, *, #295, .T. ) ;
#218 = ORIENTED_EDGE ( 'NONE', *, *, #296, .T. ) ;
#219 = ORIENTED_EDGE ( 'NONE', *, *, #6, .F. ) ;
#220 = ORIENTED_EDGE ( 'NONE', *, *, #5, .F. ) ;
#221 = ORIENTED_EDGE ( 'NONE', *, *, #272, .T. ) ;
#222 = ORIENTED_EDGE ( 'NONE', *, *, #270, .F. ) ;
#223 = ORIENTED_EDGE ( 'NONE', *, *, #270, .T. ) ;
#224 = VERTEX_POINT ( 'NONE', #38 ) ;
#225 = ORIENTED_EDGE ( 'NONE', *, *, #311, .T. ) ;
#226 = ORIENTED_EDGE ( 'NONE', *, *, #277, .F. ) ;
#227 = PERSON_AND_ORGANIZATION_ROLE ( 'classification_officer' ) ;
#228 = SECURITY_CLASSIFICATION_LEVEL ( 'unclassified' ) ;
#229 = PERSON_AND_ORGANIZATION_ROLE ( 'design_supplier' ) ;
#230 = PERSON_AND_ORGANIZATION_ROLE ( 'creator' ) ;
#231 = APPROVAL_ROLE ( '' ) ;
#232 = APPROVAL_STATUS ( 'not_yet_approved' ) ;
#233 = DATE_TIME_ROLE ( 'creation_date' ) ;
#234 = PERSON_AND_ORGANIZATION_ROLE ( 'creator' ) ;
#235 = APPROVAL_ROLE ( '' ) ;
#236 = APPROVAL_STATUS ( 'not_yet_approved' ) ;
#237 = APPLICATION_PROTOCOL_DEFINITION ( 'international standard', 'config_control_design', 1994, #238 ) ;
#238 = APPLICATION_CONTEXT ( 'configuration controlled 3d designs of mechanical parts and assemblies' ) ;
#239 = PERSON_AND_ORGANIZATION_ROLE ( 'design_owner' ) ;
#240 = MECHANICAL_CONTEXT ( 'NONE', #244, 'mechanical' ) ;
#241 = DIRECTION ( 'NONE',  ( 1.000000000000000000, 0.0000000000000000000, 0.0000000000000000000 ) ) ;
#242 = DIRECTION ( 'NONE',  ( 0.0000000000000000000, 0.0000000000000000000, 1.000000000000000000 ) ) ;
#243 = CARTESIAN_POINT ( 'NONE',  ( 0.0000000000000000000, 0.0000000000000000000, 0.0000000000000000000 ) ) ;
#244 = APPLICATION_CONTEXT ( 'configuration controlled 3d designs of mechanical parts and assemblies' ) ;
#245 = APPLICATION_PROTOCOL_DEFINITION ( 'international standard', 'config_control_design', 1994, #244 ) ;
#246 = APPROVAL_ROLE ( '' ) ;
#247 = DIRECTION ( 'NONE',  ( 1.000000000000000000, -0.0000000000000000000, -0.0000000000000000000 ) ) ;
#248 = DATE_TIME_ROLE ( 'classification_date' ) ;
#249 =( NAMED_UNIT ( * ) SI_UNIT ( $, .STERADIAN. ) SOLID_ANGLE_UNIT ( ) );
#250 =( NAMED_UNIT ( * ) PLANE_ANGLE_UNIT ( ) SI_UNIT ( $, .RADIAN. ) );
#251 =( LENGTH_UNIT ( ) NAMED_UNIT ( * ) SI_UNIT ( .MILLI., .METRE. ) );
#252 = APPROVAL_STATUS ( 'not_yet_approved' ) ;
#253 = DIRECTION ( 'NONE',  ( -0.0000000000000000000, 1.000000000000000000, -0.0000000000000000000 ) ) ;
#254 = CARTESIAN_POINT ( 'NONE',  ( -9.000000000000000000, -854.0475410754714900, -2391.411899632991200 ) ) ;
#255 = DIRECTION ( 'NONE',  ( -0.0000000000000000000, -1.000000000000000000, -0.0000000000000000000 ) ) ;
#256 = CARTESIAN_POINT ( 'NONE',  ( 0.0000000000000000000, -854.0475410754714900, -2380.311899632991300 ) ) ;
#257 = CARTESIAN_POINT ( 'NONE',  ( -9.000000000000000000, -858.0475410754716000, -2389.311899632991300 ) ) ;
#258 = DIRECTION ( 'NONE',  ( 0.0000000000000000000, 0.0000000000000000000, 1.000000000000000000 ) ) ;
#259 = DIRECTION ( 'NONE',  ( 0.0000000000000000000, 1.000000000000000000, 0.0000000000000000000 ) ) ;
#260 = DIRECTION ( 'NONE',  ( -0.0000000000000000000, 1.000000000000000000, -0.0000000000000000000 ) ) ;
#261 = CARTESIAN_POINT ( 'NONE',  ( -18.00000000000000000, -858.0475410754716000, -2398.311899632991300 ) ) ;
#262 = CARTESIAN_POINT ( 'NONE',  ( -18.00000000000000000, -854.0475410754714900, -2380.311899632991300 ) ) ;
#263 = DIRECTION ( 'NONE',  ( 1.000000000000000000, -0.0000000000000000000, -0.0000000000000000000 ) ) ;
#264 = DIRECTION ( 'NONE',  ( 0.0000000000000000000, 0.0000000000000000000, 1.000000000000000000 ) ) ;
#265 = DIRECTION ( 'NONE',  ( 0.0000000000000000000, 1.000000000000000000, 0.0000000000000000000 ) ) ;
#266 = CARTESIAN_POINT ( 'NONE',  ( -9.000000000000000000, -858.0475410754716000, -2389.311899632991300 ) ) ;
#267 = CARTESIAN_POINT ( 'NONE',  ( -18.00000000000000000, -858.0475410754716000, -2398.311899632991300 ) ) ;
#268 = AXIS2_PLACEMENT_3D ( 'NONE', #266, #265, #264 ) ;
#269 = AXIS2_PLACEMENT_3D ( 'NONE', #257, #259, #258 ) ;
#270 = EDGE_CURVE ( 'NONE', #126, #130, #149, .T. ) ;
#271 = EDGE_CURVE ( 'NONE', #195, #179, #148, .T. ) ;
#272 = EDGE_CURVE ( 'NONE', #192, #123, #156, .T. ) ;
#273 = AXIS2_PLACEMENT_3D ( 'NONE', #70, #58, #56 ) ;
#274 = AXIS2_PLACEMENT_3D ( 'NONE', #17, #15, #14 ) ;
#275 = AXIS2_PLACEMENT_3D ( 'NONE', #71, #63, #62 ) ;
#276 = EDGE_CURVE ( 'NONE', #195, #176, #147, .T. ) ;
#277 = EDGE_CURVE ( 'NONE', #130, #126, #150, .T. ) ;
#278 = CC_DESIGN_PERSON_AND_ORGANIZATION_ASSIGNMENT ( #100, #229, ( #293 ) ) ;
#279 = AXIS2_PLACEMENT_3D ( 'NONE', #54, #49, #48 ) ;
#280 = AXIS2_PLACEMENT_3D ( 'NONE', #59, #53, #52 ) ;
#281 = EDGE_CURVE ( 'NONE', #177, #130, #146, .T. ) ;
#282 = AXIS2_PLACEMENT_3D ( 'NONE', #29, #28, #26 ) ;
#283 =( GEOMETRIC_REPRESENTATION_CONTEXT ( 3 ) GLOBAL_UNCERTAINTY_ASSIGNED_CONTEXT ( ( #13 ) ) GLOBAL_UNIT_ASSIGNED_CONTEXT ( ( #251, #250, #249 ) ) REPRESENTATION_CONTEXT ( 'NONE', 'WORKASPACE' ) );
#284 = EDGE_CURVE ( 'NONE', #178, #177, #143, .T. ) ;
#285 = CC_DESIGN_PERSON_AND_ORGANIZATION_ASSIGNMENT ( #121, #239, ( #1 ) ) ;
#286 = APPROVAL ( #236, 'Î´Ö¸¶¨' ) ;
#287 = PRODUCT_DEFINITION ( 'Î´Öª', '', #293, #3 ) ;
#288 = CC_DESIGN_DATE_AND_TIME_ASSIGNMENT ( #95, #248, ( #301 ) ) ;
#289 = APPROVAL ( #252, 'Î´Ö¸¶¨' ) ;
#290 = CC_DESIGN_PERSON_AND_ORGANIZATION_ASSIGNMENT ( #101, #230, ( #293 ) ) ;
#291 = CC_DESIGN_APPROVAL ( #286, ( #287 ) ) ;
#292 = CC_DESIGN_PERSON_AND_ORGANIZATION_ASSIGNMENT ( #113, #234, ( #287 ) ) ;
#293 = PRODUCT_DEFINITION_FORMATION_WITH_SPECIFIED_SOURCE ( 'ÈÎºÎ', '', #1, .NOT_KNOWN. ) ;
#294 = CC_DESIGN_SECURITY_CLASSIFICATION ( #301, ( #293 ) ) ;
#295 = EDGE_CURVE ( 'NONE', #179, #192, #144, .T. ) ;
#296 = EDGE_CURVE ( 'NONE', #176, #192, #141, .T. ) ;
#297 = CC_DESIGN_DATE_AND_TIME_ASSIGNMENT ( #109, #233, ( #287 ) ) ;
#298 = AXIS2_PLACEMENT_3D ( 'NONE', #79, #69, #68 ) ;
#299 = CC_DESIGN_APPROVAL ( #300, ( #293 ) ) ;
#300 = APPROVAL ( #232, 'Î´Ö¸¶¨' ) ;
#301 = SECURITY_CLASSIFICATION ( '', '', #228 ) ;
#302 = PRODUCT_RELATED_PRODUCT_CATEGORY ( 'detail', '', ( #1 ) ) ;
#303 = AXIS2_PLACEMENT_3D ( 'NONE', #75, #76, #16 ) ;
#304 = CC_DESIGN_PERSON_AND_ORGANIZATION_ASSIGNMENT ( #99, #227, ( #301 ) ) ;
#305 = AXIS2_PLACEMENT_3D ( 'NONE', #23, #78, #77 ) ;
#306 = AXIS2_PLACEMENT_3D ( 'NONE', #72, #27, #25 ) ;
#307 = EDGE_CURVE ( 'NONE', #177, #178, #139, .T. ) ;
#308 = EDGE_CURVE ( 'NONE', #224, #184, #137, .T. ) ;
#309 = CC_DESIGN_APPROVAL ( #289, ( #301 ) ) ;
#310 = EDGE_CURVE ( 'NONE', #175, #224, #136, .T. ) ;
#311 = EDGE_CURVE ( 'NONE', #178, #126, #134, .T. ) ;
ENDSEC;
END-ISO-10303-21;
